ISO-10303-21;
HEADER;
/* Generated by software containing ST-Developer
 * from STEP Tools, Inc. (www.steptools.com) 
 */
/* OPTION: using custom schema-name function */

FILE_DESCRIPTION(
/* description */ (''),
/* implementation_level */ '2;1');

FILE_NAME(
/* name */ 'EX-T31Q.stp',
/* time_stamp */ '2023-04-10T10:30:13+08:00',
/* author */ (''),
/* organization */ (''),
/* preprocessor_version */ 'ST-DEVELOPER v16.7',
/* originating_system */ 'SIEMENS PLM Software NX 12.0',
/* authorisation */ '');

FILE_SCHEMA (('AUTOMOTIVE_DESIGN { 1 0 10303 214 3 1 1 1 }'));
ENDSEC;

DATA;
#10=SHAPE_REPRESENTATION_RELATIONSHIP('None',
'relationship between EX-T31Q-None and EX-T31Q-None',#22,#11);
#11=ADVANCED_BREP_SHAPE_REPRESENTATION('EX-T31Q-None',(#32),#165);
#12=SHAPE_DEFINITION_REPRESENTATION(#13,#22);
#13=PRODUCT_DEFINITION_SHAPE('','',#14);
#14=PRODUCT_DEFINITION(' ','',#16,#15);
#15=PRODUCT_DEFINITION_CONTEXT('part definition',#21,'design');
#16=PRODUCT_DEFINITION_FORMATION_WITH_SPECIFIED_SOURCE(' ',' ',#18,
 .NOT_KNOWN.);
#17=PRODUCT_RELATED_PRODUCT_CATEGORY('part','',(#18));
#18=PRODUCT('EX-T31Q','EX-T31Q',' ',(#19));
#19=PRODUCT_CONTEXT(' ',#21,'mechanical');
#20=APPLICATION_PROTOCOL_DEFINITION('international standard',
'automotive_design',2010,#21);
#21=APPLICATION_CONTEXT(
'core data for automotive mechanical design processes');
#22=SHAPE_REPRESENTATION('EX-T31Q-None',(#102),#165);
#23=PRESENTATION_LAYER_ASSIGNMENT('1','Layer 1',(#32));
#24=STYLED_ITEM('',(#25),#32);
#25=PRESENTATION_STYLE_ASSIGNMENT((#26));
#26=SURFACE_STYLE_USAGE(.BOTH.,#27);
#27=SURFACE_SIDE_STYLE('',(#28));
#28=SURFACE_STYLE_FILL_AREA(#29);
#29=FILL_AREA_STYLE('',(#30));
#30=FILL_AREA_STYLE_COLOUR('',#31);
#31=COLOUR_RGB('Orange',1.,0.6,0.);
#32=MANIFOLD_SOLID_BREP('',#33);
#33=CLOSED_SHELL('',(#40,#41,#42,#43,#44,#45,#46));
#34=FACE_OUTER_BOUND('',#68,.T.);
#35=FACE_OUTER_BOUND('',#71,.T.);
#36=PLANE('',#107);
#37=PLANE('',#109);
#38=PLANE('',#112);
#39=PLANE('',#115);
#40=ADVANCED_FACE('',(#50,#51),#47,.T.);
#41=ADVANCED_FACE('',(#52,#53),#36,.T.);
#42=ADVANCED_FACE('',(#54,#55),#37,.F.);
#43=ADVANCED_FACE('',(#56,#57),#48,.F.);
#44=ADVANCED_FACE('',(#34),#38,.T.);
#45=ADVANCED_FACE('',(#58,#59),#49,.T.);
#46=ADVANCED_FACE('',(#35),#39,.F.);
#47=CYLINDRICAL_SURFACE('',#105,1.5);
#48=CYLINDRICAL_SURFACE('',#111,0.25);
#49=CYLINDRICAL_SURFACE('',#114,0.5);
#50=FACE_BOUND('',#60,.T.);
#51=FACE_BOUND('',#61,.T.);
#52=FACE_BOUND('',#62,.T.);
#53=FACE_BOUND('',#63,.T.);
#54=FACE_BOUND('',#64,.T.);
#55=FACE_BOUND('',#65,.T.);
#56=FACE_BOUND('',#66,.T.);
#57=FACE_BOUND('',#67,.T.);
#58=FACE_BOUND('',#69,.T.);
#59=FACE_BOUND('',#70,.T.);
#60=EDGE_LOOP('',(#72));
#61=EDGE_LOOP('',(#73));
#62=EDGE_LOOP('',(#74));
#63=EDGE_LOOP('',(#75));
#64=EDGE_LOOP('',(#76));
#65=EDGE_LOOP('',(#77));
#66=EDGE_LOOP('',(#78));
#67=EDGE_LOOP('',(#79));
#68=EDGE_LOOP('',(#80));
#69=EDGE_LOOP('',(#81));
#70=EDGE_LOOP('',(#82));
#71=EDGE_LOOP('',(#83));
#72=ORIENTED_EDGE('',*,*,#90,.F.);
#73=ORIENTED_EDGE('',*,*,#91,.T.);
#74=ORIENTED_EDGE('',*,*,#92,.T.);
#75=ORIENTED_EDGE('',*,*,#90,.T.);
#76=ORIENTED_EDGE('',*,*,#93,.F.);
#77=ORIENTED_EDGE('',*,*,#91,.F.);
#78=ORIENTED_EDGE('',*,*,#94,.T.);
#79=ORIENTED_EDGE('',*,*,#93,.T.);
#80=ORIENTED_EDGE('',*,*,#94,.F.);
#81=ORIENTED_EDGE('',*,*,#95,.T.);
#82=ORIENTED_EDGE('',*,*,#92,.F.);
#83=ORIENTED_EDGE('',*,*,#95,.F.);
#84=VERTEX_POINT('',#146);
#85=VERTEX_POINT('',#148);
#86=VERTEX_POINT('',#151);
#87=VERTEX_POINT('',#154);
#88=VERTEX_POINT('',#157);
#89=VERTEX_POINT('',#161);
#90=EDGE_CURVE('',#84,#84,#96,.T.);
#91=EDGE_CURVE('',#85,#85,#97,.T.);
#92=EDGE_CURVE('',#86,#86,#98,.T.);
#93=EDGE_CURVE('',#87,#87,#99,.T.);
#94=EDGE_CURVE('',#88,#88,#100,.T.);
#95=EDGE_CURVE('',#89,#89,#101,.T.);
#96=CIRCLE('',#103,1.5);
#97=CIRCLE('',#104,1.5);
#98=CIRCLE('',#106,0.5);
#99=CIRCLE('',#108,0.25);
#100=CIRCLE('',#110,0.25);
#101=CIRCLE('',#113,0.5);
#102=AXIS2_PLACEMENT_3D('',#144,#116,#117);
#103=AXIS2_PLACEMENT_3D('',#145,#118,#119);
#104=AXIS2_PLACEMENT_3D('',#147,#120,#121);
#105=AXIS2_PLACEMENT_3D('',#149,#122,#123);
#106=AXIS2_PLACEMENT_3D('',#150,#124,#125);
#107=AXIS2_PLACEMENT_3D('',#152,#126,#127);
#108=AXIS2_PLACEMENT_3D('',#153,#128,#129);
#109=AXIS2_PLACEMENT_3D('',#155,#130,#131);
#110=AXIS2_PLACEMENT_3D('',#156,#132,#133);
#111=AXIS2_PLACEMENT_3D('',#158,#134,#135);
#112=AXIS2_PLACEMENT_3D('',#159,#136,#137);
#113=AXIS2_PLACEMENT_3D('',#160,#138,#139);
#114=AXIS2_PLACEMENT_3D('',#162,#140,#141);
#115=AXIS2_PLACEMENT_3D('',#163,#142,#143);
#116=DIRECTION('',(0.,0.,1.));
#117=DIRECTION('',(1.,0.,0.));
#118=DIRECTION('',(1.,0.,0.));
#119=DIRECTION('',(0.,1.,-6.12323399573677E-17));
#120=DIRECTION('',(1.,0.,0.));
#121=DIRECTION('',(0.,1.,-6.12323399573677E-17));
#122=DIRECTION('',(-1.,0.,0.));
#123=DIRECTION('',(0.,0.,1.));
#124=DIRECTION('',(-1.,0.,0.));
#125=DIRECTION('',(0.,1.,6.12323399573677E-17));
#126=DIRECTION('',(1.,0.,0.));
#127=DIRECTION('',(0.,0.,-1.));
#128=DIRECTION('',(-1.,0.,0.));
#129=DIRECTION('',(0.,0.,1.));
#130=DIRECTION('',(1.,0.,0.));
#131=DIRECTION('',(0.,0.,-1.));
#132=DIRECTION('',(1.,0.,0.));
#133=DIRECTION('',(0.,0.,1.));
#134=DIRECTION('',(-1.,0.,0.));
#135=DIRECTION('',(0.,0.,1.));
#136=DIRECTION('',(-1.,0.,0.));
#137=DIRECTION('',(0.,0.,1.));
#138=DIRECTION('',(-1.,0.,0.));
#139=DIRECTION('',(0.,1.,6.12323399573677E-17));
#140=DIRECTION('',(-1.,0.,0.));
#141=DIRECTION('',(0.,0.,1.));
#142=DIRECTION('',(-1.,0.,0.));
#143=DIRECTION('',(0.,0.,1.));
#144=CARTESIAN_POINT('',(0.,0.,0.));
#145=CARTESIAN_POINT('',(15.,0.,0.));
#146=CARTESIAN_POINT('',(15.,1.5,-9.18485099360515E-17));
#147=CARTESIAN_POINT('',(0.,0.,0.));
#148=CARTESIAN_POINT('',(0.,1.5,-9.18485099360515E-17));
#149=CARTESIAN_POINT('',(15.,0.,0.));
#150=CARTESIAN_POINT('',(15.,0.,0.));
#151=CARTESIAN_POINT('',(15.,0.5,3.06161699786838E-17));
#152=CARTESIAN_POINT('',(15.,0.,0.));
#153=CARTESIAN_POINT('',(0.,0.,0.));
#154=CARTESIAN_POINT('',(0.,0.,0.25));
#155=CARTESIAN_POINT('',(0.,0.,0.));
#156=CARTESIAN_POINT('',(0.05,0.,0.));
#157=CARTESIAN_POINT('',(0.05,0.,0.25));
#158=CARTESIAN_POINT('',(0.05,0.,0.));
#159=CARTESIAN_POINT('',(0.05,0.,0.));
#160=CARTESIAN_POINT('',(35.,0.,0.));
#161=CARTESIAN_POINT('',(35.,0.5,3.06161699786838E-17));
#162=CARTESIAN_POINT('',(35.,0.,0.));
#163=CARTESIAN_POINT('',(35.,0.,0.));
#164=MECHANICAL_DESIGN_GEOMETRIC_PRESENTATION_REPRESENTATION('',(#24),#165);
#165=(
GEOMETRIC_REPRESENTATION_CONTEXT(3)
GLOBAL_UNCERTAINTY_ASSIGNED_CONTEXT((#166))
GLOBAL_UNIT_ASSIGNED_CONTEXT((#172,#168,#167))
REPRESENTATION_CONTEXT('EX-T31Q','TOP_LEVEL_ASSEMBLY_PART')
);
#166=UNCERTAINTY_MEASURE_WITH_UNIT(LENGTH_MEASURE(2.E-5),#172,
'DISTANCE_ACCURACY_VALUE','Maximum Tolerance applied to model');
#167=(
NAMED_UNIT(*)
SI_UNIT($,.STERADIAN.)
SOLID_ANGLE_UNIT()
);
#168=(
CONVERSION_BASED_UNIT('DEGREE',#170)
NAMED_UNIT(#169)
PLANE_ANGLE_UNIT()
);
#169=DIMENSIONAL_EXPONENTS(0.,0.,0.,0.,0.,0.,0.);
#170=PLANE_ANGLE_MEASURE_WITH_UNIT(PLANE_ANGLE_MEASURE(0.0174532925),#171);
#171=(
NAMED_UNIT(*)
PLANE_ANGLE_UNIT()
SI_UNIT($,.RADIAN.)
);
#172=(
LENGTH_UNIT()
NAMED_UNIT(*)
SI_UNIT(.MILLI.,.METRE.)
);
ENDSEC;
END-ISO-10303-21;
